ISO-10303-21;
HEADER;
/* Generated by software containing ST-Developer
 * from STEP Tools, Inc. (www.steptools.com) 
 */
/* OPTION: using custom renumber hook */

FILE_DESCRIPTION(
/* description */ ('STEP AP242',
'CAx-IF Rec.Pracs.---Representation and Presentation of Product Manufa
cturing Information (PMI)---4.0---2014-10-13',
'CAx-IF Rec.Pracs.---3D Tessellated Geometry---0.4---2014-09-14','2;1'),

/* implementation_level */ '2;1');

FILE_NAME(
/* name */ '6336dfacf64b733695f331e1',
/* time_stamp */ '2022-09-30T12:23:09+00:00',
/* author */ (''),
/* organization */ (''),
/* preprocessor_version */ 'ST-DEVELOPER v18.102',
/* originating_system */ '  ',
/* authorisation */ '  ');

FILE_SCHEMA (('AP242_MANAGED_MODEL_BASED_3D_ENGINEERING_MIM_LF { 1 0 10303 442 1 1 4 }'));
ENDSEC;

DATA;
#10=SHAPE_REPRESENTATION_RELATIONSHIP('','',#363,#11);
#11=ADVANCED_BREP_SHAPE_REPRESENTATION('',(#361),#609);
#12=CONICAL_SURFACE('',#403,0.003,0.785398163397448);
#13=CONICAL_SURFACE('',#404,0.003,0.785398163397448);
#14=CONICAL_SURFACE('',#405,0.003,0.785398163397448);
#15=CONICAL_SURFACE('',#406,0.003,0.785398163397448);
#16=CONICAL_SURFACE('',#407,0.003,0.785398163397448);
#17=CONICAL_SURFACE('',#408,0.003,0.785398163397448);
#18=CONICAL_SURFACE('',#409,0.003,0.785398163397448);
#19=CONICAL_SURFACE('',#410,0.003,0.785398163397448);
#20=CYLINDRICAL_SURFACE('',#387,0.003);
#21=CYLINDRICAL_SURFACE('',#389,0.003);
#22=CYLINDRICAL_SURFACE('',#391,0.003);
#23=CYLINDRICAL_SURFACE('',#393,0.003);
#24=CYLINDRICAL_SURFACE('',#395,0.003);
#25=CYLINDRICAL_SURFACE('',#397,0.003);
#26=CYLINDRICAL_SURFACE('',#399,0.003);
#27=CYLINDRICAL_SURFACE('',#401,0.003);
#28=CIRCLE('',#370,0.003);
#29=CIRCLE('',#371,0.003);
#30=CIRCLE('',#372,0.003);
#31=CIRCLE('',#373,0.003);
#32=CIRCLE('',#374,0.003);
#33=CIRCLE('',#375,0.003);
#34=CIRCLE('',#376,0.003);
#35=CIRCLE('',#377,0.003);
#36=CIRCLE('',#379,0.001);
#37=CIRCLE('',#380,0.001);
#38=CIRCLE('',#381,0.001);
#39=CIRCLE('',#382,0.001);
#40=CIRCLE('',#383,0.001);
#41=CIRCLE('',#384,0.001);
#42=CIRCLE('',#385,0.001);
#43=CIRCLE('',#386,0.001);
#44=CIRCLE('',#388,0.003);
#45=CIRCLE('',#390,0.003);
#46=CIRCLE('',#392,0.003);
#47=CIRCLE('',#394,0.003);
#48=CIRCLE('',#396,0.003);
#49=CIRCLE('',#398,0.003);
#50=CIRCLE('',#400,0.003);
#51=CIRCLE('',#402,0.003);
#52=ORIENTED_EDGE('',*,*,#124,.T.);
#53=ORIENTED_EDGE('',*,*,#125,.F.);
#54=ORIENTED_EDGE('',*,*,#126,.F.);
#55=ORIENTED_EDGE('',*,*,#127,.T.);
#56=ORIENTED_EDGE('',*,*,#128,.T.);
#57=ORIENTED_EDGE('',*,*,#129,.F.);
#58=ORIENTED_EDGE('',*,*,#130,.F.);
#59=ORIENTED_EDGE('',*,*,#125,.T.);
#60=ORIENTED_EDGE('',*,*,#131,.F.);
#61=ORIENTED_EDGE('',*,*,#132,.F.);
#62=ORIENTED_EDGE('',*,*,#133,.T.);
#63=ORIENTED_EDGE('',*,*,#129,.T.);
#64=ORIENTED_EDGE('',*,*,#134,.F.);
#65=ORIENTED_EDGE('',*,*,#127,.F.);
#66=ORIENTED_EDGE('',*,*,#135,.T.);
#67=ORIENTED_EDGE('',*,*,#132,.T.);
#68=ORIENTED_EDGE('',*,*,#136,.F.);
#69=ORIENTED_EDGE('',*,*,#137,.F.);
#70=ORIENTED_EDGE('',*,*,#138,.F.);
#71=ORIENTED_EDGE('',*,*,#139,.F.);
#72=ORIENTED_EDGE('',*,*,#140,.F.);
#73=ORIENTED_EDGE('',*,*,#141,.F.);
#74=ORIENTED_EDGE('',*,*,#142,.F.);
#75=ORIENTED_EDGE('',*,*,#143,.F.);
#76=ORIENTED_EDGE('',*,*,#126,.T.);
#77=ORIENTED_EDGE('',*,*,#130,.T.);
#78=ORIENTED_EDGE('',*,*,#133,.F.);
#79=ORIENTED_EDGE('',*,*,#135,.F.);
#80=ORIENTED_EDGE('',*,*,#144,.T.);
#81=ORIENTED_EDGE('',*,*,#145,.T.);
#82=ORIENTED_EDGE('',*,*,#146,.T.);
#83=ORIENTED_EDGE('',*,*,#147,.T.);
#84=ORIENTED_EDGE('',*,*,#148,.T.);
#85=ORIENTED_EDGE('',*,*,#149,.T.);
#86=ORIENTED_EDGE('',*,*,#150,.T.);
#87=ORIENTED_EDGE('',*,*,#151,.T.);
#88=ORIENTED_EDGE('',*,*,#124,.F.);
#89=ORIENTED_EDGE('',*,*,#134,.T.);
#90=ORIENTED_EDGE('',*,*,#131,.T.);
#91=ORIENTED_EDGE('',*,*,#128,.F.);
#92=ORIENTED_EDGE('',*,*,#152,.F.);
#93=ORIENTED_EDGE('',*,*,#143,.T.);
#94=ORIENTED_EDGE('',*,*,#153,.F.);
#95=ORIENTED_EDGE('',*,*,#142,.T.);
#96=ORIENTED_EDGE('',*,*,#154,.F.);
#97=ORIENTED_EDGE('',*,*,#141,.T.);
#98=ORIENTED_EDGE('',*,*,#155,.F.);
#99=ORIENTED_EDGE('',*,*,#140,.T.);
#100=ORIENTED_EDGE('',*,*,#156,.F.);
#101=ORIENTED_EDGE('',*,*,#139,.T.);
#102=ORIENTED_EDGE('',*,*,#157,.F.);
#103=ORIENTED_EDGE('',*,*,#138,.T.);
#104=ORIENTED_EDGE('',*,*,#158,.F.);
#105=ORIENTED_EDGE('',*,*,#137,.T.);
#106=ORIENTED_EDGE('',*,*,#159,.F.);
#107=ORIENTED_EDGE('',*,*,#136,.T.);
#108=ORIENTED_EDGE('',*,*,#159,.T.);
#109=ORIENTED_EDGE('',*,*,#147,.F.);
#110=ORIENTED_EDGE('',*,*,#158,.T.);
#111=ORIENTED_EDGE('',*,*,#146,.F.);
#112=ORIENTED_EDGE('',*,*,#157,.T.);
#113=ORIENTED_EDGE('',*,*,#145,.F.);
#114=ORIENTED_EDGE('',*,*,#156,.T.);
#115=ORIENTED_EDGE('',*,*,#150,.F.);
#116=ORIENTED_EDGE('',*,*,#155,.T.);
#117=ORIENTED_EDGE('',*,*,#149,.F.);
#118=ORIENTED_EDGE('',*,*,#154,.T.);
#119=ORIENTED_EDGE('',*,*,#148,.F.);
#120=ORIENTED_EDGE('',*,*,#153,.T.);
#121=ORIENTED_EDGE('',*,*,#144,.F.);
#122=ORIENTED_EDGE('',*,*,#152,.T.);
#123=ORIENTED_EDGE('',*,*,#151,.F.);
#124=EDGE_CURVE('',#160,#161,#192,.T.);
#125=EDGE_CURVE('',#162,#161,#193,.T.);
#126=EDGE_CURVE('',#163,#162,#194,.T.);
#127=EDGE_CURVE('',#163,#160,#195,.T.);
#128=EDGE_CURVE('',#161,#164,#196,.T.);
#129=EDGE_CURVE('',#165,#164,#197,.T.);
#130=EDGE_CURVE('',#162,#165,#198,.T.);
#131=EDGE_CURVE('',#166,#164,#199,.T.);
#132=EDGE_CURVE('',#167,#166,#200,.T.);
#133=EDGE_CURVE('',#167,#165,#201,.T.);
#134=EDGE_CURVE('',#160,#166,#202,.T.);
#135=EDGE_CURVE('',#163,#167,#203,.T.);
#136=EDGE_CURVE('',#168,#168,#28,.T.);
#137=EDGE_CURVE('',#169,#169,#29,.T.);
#138=EDGE_CURVE('',#170,#170,#30,.T.);
#139=EDGE_CURVE('',#171,#171,#31,.T.);
#140=EDGE_CURVE('',#172,#172,#32,.T.);
#141=EDGE_CURVE('',#173,#173,#33,.T.);
#142=EDGE_CURVE('',#174,#174,#34,.T.);
#143=EDGE_CURVE('',#175,#175,#35,.T.);
#144=EDGE_CURVE('',#176,#176,#36,.T.);
#145=EDGE_CURVE('',#177,#177,#37,.T.);
#146=EDGE_CURVE('',#178,#178,#38,.T.);
#147=EDGE_CURVE('',#179,#179,#39,.T.);
#148=EDGE_CURVE('',#180,#180,#40,.T.);
#149=EDGE_CURVE('',#181,#181,#41,.T.);
#150=EDGE_CURVE('',#182,#182,#42,.T.);
#151=EDGE_CURVE('',#183,#183,#43,.T.);
#152=EDGE_CURVE('',#184,#184,#44,.T.);
#153=EDGE_CURVE('',#185,#185,#45,.T.);
#154=EDGE_CURVE('',#186,#186,#46,.T.);
#155=EDGE_CURVE('',#187,#187,#47,.T.);
#156=EDGE_CURVE('',#188,#188,#48,.T.);
#157=EDGE_CURVE('',#189,#189,#49,.T.);
#158=EDGE_CURVE('',#190,#190,#50,.T.);
#159=EDGE_CURVE('',#191,#191,#51,.T.);
#160=VERTEX_POINT('',#520);
#161=VERTEX_POINT('',#521);
#162=VERTEX_POINT('',#523);
#163=VERTEX_POINT('',#525);
#164=VERTEX_POINT('',#529);
#165=VERTEX_POINT('',#531);
#166=VERTEX_POINT('',#535);
#167=VERTEX_POINT('',#537);
#168=VERTEX_POINT('',#544);
#169=VERTEX_POINT('',#546);
#170=VERTEX_POINT('',#548);
#171=VERTEX_POINT('',#550);
#172=VERTEX_POINT('',#552);
#173=VERTEX_POINT('',#554);
#174=VERTEX_POINT('',#556);
#175=VERTEX_POINT('',#558);
#176=VERTEX_POINT('',#561);
#177=VERTEX_POINT('',#563);
#178=VERTEX_POINT('',#565);
#179=VERTEX_POINT('',#567);
#180=VERTEX_POINT('',#569);
#181=VERTEX_POINT('',#571);
#182=VERTEX_POINT('',#573);
#183=VERTEX_POINT('',#575);
#184=VERTEX_POINT('',#578);
#185=VERTEX_POINT('',#581);
#186=VERTEX_POINT('',#584);
#187=VERTEX_POINT('',#587);
#188=VERTEX_POINT('',#590);
#189=VERTEX_POINT('',#593);
#190=VERTEX_POINT('',#596);
#191=VERTEX_POINT('',#599);
#192=LINE('',#519,#204);
#193=LINE('',#522,#205);
#194=LINE('',#524,#206);
#195=LINE('',#526,#207);
#196=LINE('',#528,#208);
#197=LINE('',#530,#209);
#198=LINE('',#532,#210);
#199=LINE('',#534,#211);
#200=LINE('',#536,#212);
#201=LINE('',#538,#213);
#202=LINE('',#540,#214);
#203=LINE('',#541,#215);
#204=VECTOR('',#415,1.);
#205=VECTOR('',#416,1.);
#206=VECTOR('',#417,1.);
#207=VECTOR('',#418,1.);
#208=VECTOR('',#421,1.);
#209=VECTOR('',#422,1.);
#210=VECTOR('',#423,1.);
#211=VECTOR('',#426,1.);
#212=VECTOR('',#427,1.);
#213=VECTOR('',#428,1.);
#214=VECTOR('',#431,1.);
#215=VECTOR('',#432,1.);
#216=EDGE_LOOP('',(#52,#53,#54,#55));
#217=EDGE_LOOP('',(#56,#57,#58,#59));
#218=EDGE_LOOP('',(#60,#61,#62,#63));
#219=EDGE_LOOP('',(#64,#65,#66,#67));
#220=EDGE_LOOP('',(#68));
#221=EDGE_LOOP('',(#69));
#222=EDGE_LOOP('',(#70));
#223=EDGE_LOOP('',(#71));
#224=EDGE_LOOP('',(#72));
#225=EDGE_LOOP('',(#73));
#226=EDGE_LOOP('',(#74));
#227=EDGE_LOOP('',(#75));
#228=EDGE_LOOP('',(#76,#77,#78,#79));
#229=EDGE_LOOP('',(#80));
#230=EDGE_LOOP('',(#81));
#231=EDGE_LOOP('',(#82));
#232=EDGE_LOOP('',(#83));
#233=EDGE_LOOP('',(#84));
#234=EDGE_LOOP('',(#85));
#235=EDGE_LOOP('',(#86));
#236=EDGE_LOOP('',(#87));
#237=EDGE_LOOP('',(#88,#89,#90,#91));
#238=EDGE_LOOP('',(#92));
#239=EDGE_LOOP('',(#93));
#240=EDGE_LOOP('',(#94));
#241=EDGE_LOOP('',(#95));
#242=EDGE_LOOP('',(#96));
#243=EDGE_LOOP('',(#97));
#244=EDGE_LOOP('',(#98));
#245=EDGE_LOOP('',(#99));
#246=EDGE_LOOP('',(#100));
#247=EDGE_LOOP('',(#101));
#248=EDGE_LOOP('',(#102));
#249=EDGE_LOOP('',(#103));
#250=EDGE_LOOP('',(#104));
#251=EDGE_LOOP('',(#105));
#252=EDGE_LOOP('',(#106));
#253=EDGE_LOOP('',(#107));
#254=EDGE_LOOP('',(#108));
#255=EDGE_LOOP('',(#109));
#256=EDGE_LOOP('',(#110));
#257=EDGE_LOOP('',(#111));
#258=EDGE_LOOP('',(#112));
#259=EDGE_LOOP('',(#113));
#260=EDGE_LOOP('',(#114));
#261=EDGE_LOOP('',(#115));
#262=EDGE_LOOP('',(#116));
#263=EDGE_LOOP('',(#117));
#264=EDGE_LOOP('',(#118));
#265=EDGE_LOOP('',(#119));
#266=EDGE_LOOP('',(#120));
#267=EDGE_LOOP('',(#121));
#268=EDGE_LOOP('',(#122));
#269=EDGE_LOOP('',(#123));
#270=FACE_BOUND('',#216,.T.);
#271=FACE_BOUND('',#217,.T.);
#272=FACE_BOUND('',#218,.T.);
#273=FACE_BOUND('',#219,.T.);
#274=FACE_BOUND('',#220,.T.);
#275=FACE_BOUND('',#221,.T.);
#276=FACE_BOUND('',#222,.T.);
#277=FACE_BOUND('',#223,.T.);
#278=FACE_BOUND('',#224,.T.);
#279=FACE_BOUND('',#225,.T.);
#280=FACE_BOUND('',#226,.T.);
#281=FACE_BOUND('',#227,.T.);
#282=FACE_BOUND('',#228,.T.);
#283=FACE_BOUND('',#229,.T.);
#284=FACE_BOUND('',#230,.T.);
#285=FACE_BOUND('',#231,.T.);
#286=FACE_BOUND('',#232,.T.);
#287=FACE_BOUND('',#233,.T.);
#288=FACE_BOUND('',#234,.T.);
#289=FACE_BOUND('',#235,.T.);
#290=FACE_BOUND('',#236,.T.);
#291=FACE_BOUND('',#237,.T.);
#292=FACE_BOUND('',#238,.T.);
#293=FACE_BOUND('',#239,.T.);
#294=FACE_BOUND('',#240,.T.);
#295=FACE_BOUND('',#241,.T.);
#296=FACE_BOUND('',#242,.T.);
#297=FACE_BOUND('',#243,.T.);
#298=FACE_BOUND('',#244,.T.);
#299=FACE_BOUND('',#245,.T.);
#300=FACE_BOUND('',#246,.T.);
#301=FACE_BOUND('',#247,.T.);
#302=FACE_BOUND('',#248,.T.);
#303=FACE_BOUND('',#249,.T.);
#304=FACE_BOUND('',#250,.T.);
#305=FACE_BOUND('',#251,.T.);
#306=FACE_BOUND('',#252,.T.);
#307=FACE_BOUND('',#253,.T.);
#308=FACE_BOUND('',#254,.T.);
#309=FACE_BOUND('',#255,.T.);
#310=FACE_BOUND('',#256,.T.);
#311=FACE_BOUND('',#257,.T.);
#312=FACE_BOUND('',#258,.T.);
#313=FACE_BOUND('',#259,.T.);
#314=FACE_BOUND('',#260,.T.);
#315=FACE_BOUND('',#261,.T.);
#316=FACE_BOUND('',#262,.T.);
#317=FACE_BOUND('',#263,.T.);
#318=FACE_BOUND('',#264,.T.);
#319=FACE_BOUND('',#265,.T.);
#320=FACE_BOUND('',#266,.T.);
#321=FACE_BOUND('',#267,.T.);
#322=FACE_BOUND('',#268,.T.);
#323=FACE_BOUND('',#269,.T.);
#324=PLANE('',#365);
#325=PLANE('',#366);
#326=PLANE('',#367);
#327=PLANE('',#368);
#328=PLANE('',#369);
#329=PLANE('',#378);
#330=ADVANCED_FACE('',(#270),#324,.F.);
#331=ADVANCED_FACE('',(#271),#325,.F.);
#332=ADVANCED_FACE('',(#272),#326,.T.);
#333=ADVANCED_FACE('',(#273),#327,.T.);
#334=ADVANCED_FACE('',(#274,#275,#276,#277,#278,#279,#280,#281,#282),#328,
 .T.);
#335=ADVANCED_FACE('',(#283,#284,#285,#286,#287,#288,#289,#290,#291),#329,
 .F.);
#336=ADVANCED_FACE('',(#292,#293),#20,.F.);
#337=ADVANCED_FACE('',(#294,#295),#21,.F.);
#338=ADVANCED_FACE('',(#296,#297),#22,.F.);
#339=ADVANCED_FACE('',(#298,#299),#23,.F.);
#340=ADVANCED_FACE('',(#300,#301),#24,.F.);
#341=ADVANCED_FACE('',(#302,#303),#25,.F.);
#342=ADVANCED_FACE('',(#304,#305),#26,.F.);
#343=ADVANCED_FACE('',(#306,#307),#27,.F.);
#344=ADVANCED_FACE('',(#308,#309),#12,.F.);
#345=ADVANCED_FACE('',(#310,#311),#13,.F.);
#346=ADVANCED_FACE('',(#312,#313),#14,.F.);
#347=ADVANCED_FACE('',(#314,#315),#15,.F.);
#348=ADVANCED_FACE('',(#316,#317),#16,.F.);
#349=ADVANCED_FACE('',(#318,#319),#17,.F.);
#350=ADVANCED_FACE('',(#320,#321),#18,.F.);
#351=ADVANCED_FACE('',(#322,#323),#19,.F.);
#352=CLOSED_SHELL('',(#330,#331,#332,#333,#334,#335,#336,#337,#338,#339,
#340,#341,#342,#343,#344,#345,#346,#347,#348,#349,#350,#351));
#353=STYLED_ITEM('',(#354),#361);
#354=PRESENTATION_STYLE_ASSIGNMENT((#355));
#355=SURFACE_STYLE_USAGE(.BOTH.,#356);
#356=SURFACE_SIDE_STYLE('',(#357));
#357=SURFACE_STYLE_FILL_AREA(#358);
#358=FILL_AREA_STYLE('',(#359));
#359=FILL_AREA_STYLE_COLOUR('',#360);
#360=COLOUR_RGB('',0.498039215686275,0.498039215686275,0.498039215686275);
#361=MANIFOLD_SOLID_BREP('Battery Lid',#352);
#362=SHAPE_DEFINITION_REPRESENTATION(#614,#363);
#363=SHAPE_REPRESENTATION('Battery Lid',(#364),#609);
#364=AXIS2_PLACEMENT_3D('',#517,#411,#412);
#365=AXIS2_PLACEMENT_3D('',#518,#413,#414);
#366=AXIS2_PLACEMENT_3D('',#527,#419,#420);
#367=AXIS2_PLACEMENT_3D('',#533,#424,#425);
#368=AXIS2_PLACEMENT_3D('',#539,#429,#430);
#369=AXIS2_PLACEMENT_3D('',#542,#433,#434);
#370=AXIS2_PLACEMENT_3D('',#543,#435,#436);
#371=AXIS2_PLACEMENT_3D('',#545,#437,#438);
#372=AXIS2_PLACEMENT_3D('',#547,#439,#440);
#373=AXIS2_PLACEMENT_3D('',#549,#441,#442);
#374=AXIS2_PLACEMENT_3D('',#551,#443,#444);
#375=AXIS2_PLACEMENT_3D('',#553,#445,#446);
#376=AXIS2_PLACEMENT_3D('',#555,#447,#448);
#377=AXIS2_PLACEMENT_3D('',#557,#449,#450);
#378=AXIS2_PLACEMENT_3D('',#559,#451,#452);
#379=AXIS2_PLACEMENT_3D('',#560,#453,#454);
#380=AXIS2_PLACEMENT_3D('',#562,#455,#456);
#381=AXIS2_PLACEMENT_3D('',#564,#457,#458);
#382=AXIS2_PLACEMENT_3D('',#566,#459,#460);
#383=AXIS2_PLACEMENT_3D('',#568,#461,#462);
#384=AXIS2_PLACEMENT_3D('',#570,#463,#464);
#385=AXIS2_PLACEMENT_3D('',#572,#465,#466);
#386=AXIS2_PLACEMENT_3D('',#574,#467,#468);
#387=AXIS2_PLACEMENT_3D('',#576,#469,#470);
#388=AXIS2_PLACEMENT_3D('',#577,#471,#472);
#389=AXIS2_PLACEMENT_3D('',#579,#473,#474);
#390=AXIS2_PLACEMENT_3D('',#580,#475,#476);
#391=AXIS2_PLACEMENT_3D('',#582,#477,#478);
#392=AXIS2_PLACEMENT_3D('',#583,#479,#480);
#393=AXIS2_PLACEMENT_3D('',#585,#481,#482);
#394=AXIS2_PLACEMENT_3D('',#586,#483,#484);
#395=AXIS2_PLACEMENT_3D('',#588,#485,#486);
#396=AXIS2_PLACEMENT_3D('',#589,#487,#488);
#397=AXIS2_PLACEMENT_3D('',#591,#489,#490);
#398=AXIS2_PLACEMENT_3D('',#592,#491,#492);
#399=AXIS2_PLACEMENT_3D('',#594,#493,#494);
#400=AXIS2_PLACEMENT_3D('',#595,#495,#496);
#401=AXIS2_PLACEMENT_3D('',#597,#497,#498);
#402=AXIS2_PLACEMENT_3D('',#598,#499,#500);
#403=AXIS2_PLACEMENT_3D('',#600,#501,#502);
#404=AXIS2_PLACEMENT_3D('',#601,#503,#504);
#405=AXIS2_PLACEMENT_3D('',#602,#505,#506);
#406=AXIS2_PLACEMENT_3D('',#603,#507,#508);
#407=AXIS2_PLACEMENT_3D('',#604,#509,#510);
#408=AXIS2_PLACEMENT_3D('',#605,#511,#512);
#409=AXIS2_PLACEMENT_3D('',#606,#513,#514);
#410=AXIS2_PLACEMENT_3D('',#607,#515,#516);
#411=DIRECTION('',(0.,0.,1.));
#412=DIRECTION('',(1.,0.,0.));
#413=DIRECTION('',(1.,-7.24623828302482E-18,2.56996070515082E-16));
#414=DIRECTION('',(2.56996070515082E-16,0.,-1.));
#415=DIRECTION('',(2.56996070515082E-16,8.32667268468867E-17,-1.));
#416=DIRECTION('',(7.2462382830248E-18,1.,8.32667268468867E-17));
#417=DIRECTION('',(2.56996070515082E-16,8.32667268468867E-17,-1.));
#418=DIRECTION('',(7.2462382830248E-18,1.,8.32667268468867E-17));
#419=DIRECTION('',(1.11365196253841E-49,-8.32667268468867E-17,1.));
#420=DIRECTION('',(0.,-1.,-8.32667268468867E-17));
#421=DIRECTION('',(1.,-7.2462382830248E-18,-6.03370543780079E-34));
#422=DIRECTION('',(7.2462382830248E-18,1.,8.32667268468867E-17));
#423=DIRECTION('',(1.,-7.2462382830248E-18,-6.03370543780079E-34));
#424=DIRECTION('',(1.,-7.24623828302482E-18,2.56996070515082E-16));
#425=DIRECTION('',(2.56996070515082E-16,0.,-1.));
#426=DIRECTION('',(2.56996070515082E-16,8.32667268468867E-17,-1.));
#427=DIRECTION('',(7.2462382830248E-18,1.,8.32667268468867E-17));
#428=DIRECTION('',(2.56996070515082E-16,8.32667268468867E-17,-1.));
#429=DIRECTION('',(1.11365196253841E-49,-8.32667268468867E-17,1.));
#430=DIRECTION('',(0.,-1.,-8.32667268468867E-17));
#431=DIRECTION('',(1.,-7.2462382830248E-18,-6.03370543780079E-34));
#432=DIRECTION('',(1.,-7.2462382830248E-18,-6.03370543780079E-34));
#433=DIRECTION('',(-7.2462382830248E-18,-1.,-8.32667268468867E-17));
#434=DIRECTION('',(1.,-7.2462382830248E-18,-6.03370543780079E-34));
#435=DIRECTION('',(-7.2462382830248E-18,-1.,-8.32667268468867E-17));
#436=DIRECTION('',(0.,8.32667268468867E-17,-1.));
#437=DIRECTION('',(-7.2462382830248E-18,-1.,-8.32667268468867E-17));
#438=DIRECTION('',(0.,8.32667268468867E-17,-1.));
#439=DIRECTION('',(-7.2462382830248E-18,-1.,-8.32667268468867E-17));
#440=DIRECTION('',(0.,8.32667268468867E-17,-1.));
#441=DIRECTION('',(-7.2462382830248E-18,-1.,-8.32667268468867E-17));
#442=DIRECTION('',(0.,8.32667268468867E-17,-1.));
#443=DIRECTION('',(-7.2462382830248E-18,-1.,-8.32667268468867E-17));
#444=DIRECTION('',(0.,8.32667268468867E-17,-1.));
#445=DIRECTION('',(-7.2462382830248E-18,-1.,-8.32667268468867E-17));
#446=DIRECTION('',(0.,8.32667268468867E-17,-1.));
#447=DIRECTION('',(-7.2462382830248E-18,-1.,-8.32667268468867E-17));
#448=DIRECTION('',(0.,8.32667268468867E-17,-1.));
#449=DIRECTION('',(-7.2462382830248E-18,-1.,-8.32667268468867E-17));
#450=DIRECTION('',(0.,8.32667268468867E-17,-1.));
#451=DIRECTION('',(-7.2462382830248E-18,-1.,-8.32667268468867E-17));
#452=DIRECTION('',(1.,-7.2462382830248E-18,-6.03370543780079E-34));
#453=DIRECTION('',(-7.2462382830248E-18,-1.,-8.32667268468867E-17));
#454=DIRECTION('',(0.,8.32667268468867E-17,-1.));
#455=DIRECTION('',(-7.2462382830248E-18,-1.,-8.32667268468867E-17));
#456=DIRECTION('',(0.,8.32667268468867E-17,-1.));
#457=DIRECTION('',(-7.2462382830248E-18,-1.,-8.32667268468867E-17));
#458=DIRECTION('',(0.,8.32667268468867E-17,-1.));
#459=DIRECTION('',(-7.2462382830248E-18,-1.,-8.32667268468867E-17));
#460=DIRECTION('',(0.,8.32667268468867E-17,-1.));
#461=DIRECTION('',(-7.2462382830248E-18,-1.,-8.32667268468867E-17));
#462=DIRECTION('',(0.,8.32667268468867E-17,-1.));
#463=DIRECTION('',(-7.2462382830248E-18,-1.,-8.32667268468867E-17));
#464=DIRECTION('',(0.,8.32667268468867E-17,-1.));
#465=DIRECTION('',(-7.2462382830248E-18,-1.,-8.32667268468867E-17));
#466=DIRECTION('',(0.,8.32667268468867E-17,-1.));
#467=DIRECTION('',(-7.2462382830248E-18,-1.,-8.32667268468867E-17));
#468=DIRECTION('',(0.,8.32667268468867E-17,-1.));
#469=DIRECTION('',(-7.2462382830248E-18,-1.,-8.32667268468867E-17));
#470=DIRECTION('',(0.,8.32667268468867E-17,-1.));
#471=DIRECTION('',(-7.2462382830248E-18,-1.,-8.32667268468867E-17));
#472=DIRECTION('',(0.,8.32667268468867E-17,-1.));
#473=DIRECTION('',(-7.2462382830248E-18,-1.,-8.32667268468867E-17));
#474=DIRECTION('',(0.,8.32667268468867E-17,-1.));
#475=DIRECTION('',(-7.2462382830248E-18,-1.,-8.32667268468867E-17));
#476=DIRECTION('',(0.,8.32667268468867E-17,-1.));
#477=DIRECTION('',(-7.2462382830248E-18,-1.,-8.32667268468867E-17));
#478=DIRECTION('',(0.,8.32667268468867E-17,-1.));
#479=DIRECTION('',(-7.2462382830248E-18,-1.,-8.32667268468867E-17));
#480=DIRECTION('',(0.,8.32667268468867E-17,-1.));
#481=DIRECTION('',(-7.2462382830248E-18,-1.,-8.32667268468867E-17));
#482=DIRECTION('',(0.,8.32667268468867E-17,-1.));
#483=DIRECTION('',(-7.2462382830248E-18,-1.,-8.32667268468867E-17));
#484=DIRECTION('',(0.,8.32667268468867E-17,-1.));
#485=DIRECTION('',(-7.2462382830248E-18,-1.,-8.32667268468867E-17));
#486=DIRECTION('',(0.,8.32667268468867E-17,-1.));
#487=DIRECTION('',(-7.2462382830248E-18,-1.,-8.32667268468867E-17));
#488=DIRECTION('',(0.,8.32667268468867E-17,-1.));
#489=DIRECTION('',(-7.2462382830248E-18,-1.,-8.32667268468867E-17));
#490=DIRECTION('',(0.,8.32667268468867E-17,-1.));
#491=DIRECTION('',(-7.2462382830248E-18,-1.,-8.32667268468867E-17));
#492=DIRECTION('',(0.,8.32667268468867E-17,-1.));
#493=DIRECTION('',(-7.2462382830248E-18,-1.,-8.32667268468867E-17));
#494=DIRECTION('',(0.,8.32667268468867E-17,-1.));
#495=DIRECTION('',(-7.2462382830248E-18,-1.,-8.32667268468867E-17));
#496=DIRECTION('',(0.,8.32667268468867E-17,-1.));
#497=DIRECTION('',(-7.2462382830248E-18,-1.,-8.32667268468867E-17));
#498=DIRECTION('',(0.,8.32667268468867E-17,-1.));
#499=DIRECTION('',(-7.2462382830248E-18,-1.,-8.32667268468867E-17));
#500=DIRECTION('',(0.,8.32667268468867E-17,-1.));
#501=DIRECTION('',(-7.2462382830248E-18,-1.,-8.32667268468867E-17));
#502=DIRECTION('',(0.,-8.32667268468867E-17,1.));
#503=DIRECTION('',(-7.2462382830248E-18,-1.,-8.32667268468867E-17));
#504=DIRECTION('',(0.,-8.32667268468867E-17,1.));
#505=DIRECTION('',(-7.2462382830248E-18,-1.,-8.32667268468867E-17));
#506=DIRECTION('',(0.,-8.32667268468867E-17,1.));
#507=DIRECTION('',(-7.2462382830248E-18,-1.,-8.32667268468867E-17));
#508=DIRECTION('',(0.,-8.32667268468867E-17,1.));
#509=DIRECTION('',(-7.2462382830248E-18,-1.,-8.32667268468867E-17));
#510=DIRECTION('',(0.,-8.32667268468867E-17,1.));
#511=DIRECTION('',(-7.2462382830248E-18,-1.,-8.32667268468867E-17));
#512=DIRECTION('',(0.,-8.32667268468867E-17,1.));
#513=DIRECTION('',(-7.2462382830248E-18,-1.,-8.32667268468867E-17));
#514=DIRECTION('',(0.,-8.32667268468867E-17,1.));
#515=DIRECTION('',(-7.2462382830248E-18,-1.,-8.32667268468867E-17));
#516=DIRECTION('',(0.,-8.32667268468867E-17,1.));
#517=CARTESIAN_POINT('',(0.,0.,0.));
#518=CARTESIAN_POINT('',(-0.07551,-0.0199,0.0014));
#519=CARTESIAN_POINT('',(-0.07551,-0.0169,0.0014));
#520=CARTESIAN_POINT('',(-0.07551,-0.0169,0.0644));
#521=CARTESIAN_POINT('',(-0.07551,-0.0169,-0.0616));
#522=CARTESIAN_POINT('',(-0.07551,-0.0199,-0.0616));
#523=CARTESIAN_POINT('',(-0.07551,-0.0199,-0.0616));
#524=CARTESIAN_POINT('',(-0.07551,-0.0199,0.0014));
#525=CARTESIAN_POINT('',(-0.07551,-0.0199,0.0644));
#526=CARTESIAN_POINT('',(-0.07551,-0.0199,0.0644));
#527=CARTESIAN_POINT('',(-0.01251,-0.0199,-0.0616));
#528=CARTESIAN_POINT('',(-0.01251,-0.0169,-0.0616));
#529=CARTESIAN_POINT('',(0.05049,-0.0169,-0.0616));
#530=CARTESIAN_POINT('',(0.05049,-0.0199,-0.0616));
#531=CARTESIAN_POINT('',(0.05049,-0.0199,-0.0616));
#532=CARTESIAN_POINT('',(-0.01251,-0.0199,-0.0616));
#533=CARTESIAN_POINT('',(0.05049,-0.0199,0.0014));
#534=CARTESIAN_POINT('',(0.05049,-0.0169,0.0014));
#535=CARTESIAN_POINT('',(0.05049,-0.0169,0.0644));
#536=CARTESIAN_POINT('',(0.05049,-0.0199,0.0644));
#537=CARTESIAN_POINT('',(0.05049,-0.0199,0.0644));
#538=CARTESIAN_POINT('',(0.05049,-0.0199,0.0014));
#539=CARTESIAN_POINT('',(-0.01251,-0.0199,0.0644));
#540=CARTESIAN_POINT('',(-0.01251,-0.0169,0.0644));
#541=CARTESIAN_POINT('',(-0.01251,-0.0199,0.0644));
#542=CARTESIAN_POINT('',(-0.01251,-0.0199,0.0014));
#543=CARTESIAN_POINT('',(0.00709,-0.0199,-0.058));
#544=CARTESIAN_POINT('',(0.00709,-0.0199,-0.061));
#545=CARTESIAN_POINT('',(-0.03211,-0.0199,-0.058));
#546=CARTESIAN_POINT('',(-0.03211,-0.0199,-0.061));
#547=CARTESIAN_POINT('',(-0.07191,-0.0199,-0.05305));
#548=CARTESIAN_POINT('',(-0.07191,-0.0199,-0.05605));
#549=CARTESIAN_POINT('',(-0.07191,-0.0199,0.05585));
#550=CARTESIAN_POINT('',(-0.07191,-0.0199,0.05285));
#551=CARTESIAN_POINT('',(-0.03211,-0.0199,0.0608));
#552=CARTESIAN_POINT('',(-0.03211,-0.0199,0.0578));
#553=CARTESIAN_POINT('',(0.00709,-0.0199,0.0608));
#554=CARTESIAN_POINT('',(0.00709,-0.0199,0.0578));
#555=CARTESIAN_POINT('',(0.04689,-0.0199,0.05585));
#556=CARTESIAN_POINT('',(0.04689,-0.0199,0.05285));
#557=CARTESIAN_POINT('',(0.04689,-0.0199,-0.05305));
#558=CARTESIAN_POINT('',(0.04689,-0.0199,-0.05605));
#559=CARTESIAN_POINT('',(-0.01251,-0.0169,0.0014));
#560=CARTESIAN_POINT('',(0.04689,-0.0169,0.05585));
#561=CARTESIAN_POINT('',(0.04689,-0.0169,0.05485));
#562=CARTESIAN_POINT('',(-0.07191,-0.0169,-0.05305));
#563=CARTESIAN_POINT('',(-0.07191,-0.0169,-0.05405));
#564=CARTESIAN_POINT('',(-0.03211,-0.0169,-0.058));
#565=CARTESIAN_POINT('',(-0.03211,-0.0169,-0.059));
#566=CARTESIAN_POINT('',(0.00709,-0.0169,-0.058));
#567=CARTESIAN_POINT('',(0.00709,-0.0169,-0.059));
#568=CARTESIAN_POINT('',(0.00709,-0.0169,0.0608));
#569=CARTESIAN_POINT('',(0.00709,-0.0169,0.0598));
#570=CARTESIAN_POINT('',(-0.03211,-0.0169,0.0608));
#571=CARTESIAN_POINT('',(-0.03211,-0.0169,0.0598));
#572=CARTESIAN_POINT('',(-0.07191,-0.0169,0.05585));
#573=CARTESIAN_POINT('',(-0.07191,-0.0169,0.05485));
#574=CARTESIAN_POINT('',(0.04689,-0.0169,-0.05305));
#575=CARTESIAN_POINT('',(0.04689,-0.0169,-0.05405));
#576=CARTESIAN_POINT('',(0.04689,-0.0189,-0.05305));
#577=CARTESIAN_POINT('',(0.04689,-0.0189,-0.05305));
#578=CARTESIAN_POINT('',(0.04689,-0.0189,-0.05605));
#579=CARTESIAN_POINT('',(0.04689,-0.0189,0.05585));
#580=CARTESIAN_POINT('',(0.04689,-0.0189,0.05585));
#581=CARTESIAN_POINT('',(0.04689,-0.0189,0.05285));
#582=CARTESIAN_POINT('',(0.00709,-0.0189,0.0608));
#583=CARTESIAN_POINT('',(0.00709,-0.0189,0.0608));
#584=CARTESIAN_POINT('',(0.00709,-0.0189,0.0578));
#585=CARTESIAN_POINT('',(-0.03211,-0.0189,0.0608));
#586=CARTESIAN_POINT('',(-0.03211,-0.0189,0.0608));
#587=CARTESIAN_POINT('',(-0.03211,-0.0189,0.0578));
#588=CARTESIAN_POINT('',(-0.07191,-0.0189,0.05585));
#589=CARTESIAN_POINT('',(-0.07191,-0.0189,0.05585));
#590=CARTESIAN_POINT('',(-0.07191,-0.0189,0.05285));
#591=CARTESIAN_POINT('',(-0.07191,-0.0189,-0.05305));
#592=CARTESIAN_POINT('',(-0.07191,-0.0189,-0.05305));
#593=CARTESIAN_POINT('',(-0.07191,-0.0189,-0.05605));
#594=CARTESIAN_POINT('',(-0.03211,-0.0189,-0.058));
#595=CARTESIAN_POINT('',(-0.03211,-0.0189,-0.058));
#596=CARTESIAN_POINT('',(-0.03211,-0.0189,-0.061));
#597=CARTESIAN_POINT('',(0.00709,-0.0189,-0.058));
#598=CARTESIAN_POINT('',(0.00709,-0.0189,-0.058));
#599=CARTESIAN_POINT('',(0.00709,-0.0189,-0.061));
#600=CARTESIAN_POINT('',(0.00709,-0.0189,-0.058));
#601=CARTESIAN_POINT('',(-0.03211,-0.0189,-0.058));
#602=CARTESIAN_POINT('',(-0.07191,-0.0189,-0.05305));
#603=CARTESIAN_POINT('',(-0.07191,-0.0189,0.05585));
#604=CARTESIAN_POINT('',(-0.03211,-0.0189,0.0608));
#605=CARTESIAN_POINT('',(0.00709,-0.0189,0.0608));
#606=CARTESIAN_POINT('',(0.04689,-0.0189,0.05585));
#607=CARTESIAN_POINT('',(0.04689,-0.0189,-0.05305));
#608=MECHANICAL_DESIGN_GEOMETRIC_PRESENTATION_REPRESENTATION('',(#353),
#609);
#609=(
GEOMETRIC_REPRESENTATION_CONTEXT(3)
GLOBAL_UNCERTAINTY_ASSIGNED_CONTEXT((#610))
GLOBAL_UNIT_ASSIGNED_CONTEXT((#613,#612,#611))
REPRESENTATION_CONTEXT('Battery Lid','TOP_LEVEL_ASSEMBLY_PART')
);
#610=UNCERTAINTY_MEASURE_WITH_UNIT(LENGTH_MEASURE(5.E-6),#613,
'DISTANCE_ACCURACY_VALUE','Maximum Tolerance applied to model');
#611=(
NAMED_UNIT(*)
SI_UNIT($,.STERADIAN.)
SOLID_ANGLE_UNIT()
);
#612=(
NAMED_UNIT(*)
PLANE_ANGLE_UNIT()
SI_UNIT($,.RADIAN.)
);
#613=(
LENGTH_UNIT()
NAMED_UNIT(*)
SI_UNIT($,.METRE.)
);
#614=PRODUCT_DEFINITION_SHAPE('','',#615);
#615=PRODUCT_DEFINITION('','',#617,#616);
#616=PRODUCT_DEFINITION_CONTEXT('',#623,'design');
#617=PRODUCT_DEFINITION_FORMATION_WITH_SPECIFIED_SOURCE('','',#619,
 .NOT_KNOWN.);
#618=PRODUCT_RELATED_PRODUCT_CATEGORY('','',(#619));
#619=PRODUCT('Battery Lid','Battery Lid','Battery Lid',(#621));
#620=PRODUCT_CATEGORY('','');
#621=PRODUCT_CONTEXT('',#623,'mechanical');
#622=APPLICATION_PROTOCOL_DEFINITION('international standard',
'ap242_managed_model_based_3d_engineering',2011,#623);
#623=APPLICATION_CONTEXT('managed model based 3d engineering');
ENDSEC;
END-ISO-10303-21;
